ISO-10303-21;
HEADER;
FILE_DESCRIPTION (( 'STEP AP203' ),
    '1' );
FILE_NAME ('Entry thread seal - Metric and NPT.115 Metric.STEP',
    '2013-02-07T10:14:38',
    ( '' ),
    ( '' ),
    'SwSTEP 2.0',
    'SolidWorks 2012',
    '' );
FILE_SCHEMA (( 'CONFIG_CONTROL_DESIGN' ));
ENDSEC;

DATA;
#1 = VERTEX_POINT ( 'NONE', #78 ) ;
#2 = CLOSED_SHELL ( 'NONE', ( #38, #36, #39, #37, #34, #35 ) ) ;
#3 = VERTEX_POINT ( 'NONE', #69 ) ;
#4 = VERTEX_POINT ( 'NONE', #107 ) ;
#5 = VERTEX_POINT ( 'NONE', #106 ) ;
#6 = VERTEX_POINT ( 'NONE', #81 ) ;
#7 = PRODUCT_DEFINITION_SHAPE ( 'NONE', 'NONE',  #17 ) ;
#8 = DESIGN_CONTEXT ( 'detailed design', #114, 'design' ) ;
#9 = DATE_TIME_ROLE ( 'classification_date' ) ;
#10 = APPROVAL_STATUS ( 'not_yet_approved' ) ;
#11 = APPROVAL_ROLE ( '' ) ;
#12 = AXIS2_PLACEMENT_3D ( 'NONE', #44, #43, #42 ) ;
#13 = AXIS2_PLACEMENT_3D ( 'NONE', #40, #110, #109 ) ;
#14 =( GEOMETRIC_REPRESENTATION_CONTEXT ( 3 ) GLOBAL_UNCERTAINTY_ASSIGNED_CONTEXT ( ( #147 ) ) GLOBAL_UNIT_ASSIGNED_CONTEXT ( ( #105, #75, #74 ) ) REPRESENTATION_CONTEXT ( 'NONE', 'WORKASPACE' ) );
#15 = AXIS2_PLACEMENT_3D ( 'NONE', #41, #104, #117 ) ;
#16 = CC_DESIGN_PERSON_AND_ORGANIZATION_ASSIGNMENT ( #216, #119, ( #149 ) ) ;
#17 = PRODUCT_DEFINITION ( 'UNKNOWN', '', #22, #8 ) ;
#18 = APPROVAL ( #116, 'UNSPECIFIED' ) ;
#19 = CC_DESIGN_APPROVAL ( #18, ( #17 ) ) ;
#20 = CC_DESIGN_PERSON_AND_ORGANIZATION_ASSIGNMENT ( #224, #112, ( #17 ) ) ;
#21 = CC_DESIGN_DATE_AND_TIME_ASSIGNMENT ( #228, #113, ( #17 ) ) ;
#22 = PRODUCT_DEFINITION_FORMATION_WITH_SPECIFIED_SOURCE ( 'ANY', '', #149, .NOT_KNOWN. ) ;
#23 = APPROVAL ( #82, 'UNSPECIFIED' ) ;
#24 = CC_DESIGN_APPROVAL ( #23, ( #22 ) ) ;
#25 = CC_DESIGN_PERSON_AND_ORGANIZATION_ASSIGNMENT ( #236, #88, ( #22 ) ) ;
#26 = CC_DESIGN_PERSON_AND_ORGANIZATION_ASSIGNMENT ( #237, #89, ( #22 ) ) ;
#27 = SECURITY_CLASSIFICATION ( '', '', #73 ) ;
#28 = CC_DESIGN_PERSON_AND_ORGANIZATION_ASSIGNMENT ( #238, #72, ( #27 ) ) ;
#29 = CC_DESIGN_DATE_AND_TIME_ASSIGNMENT ( #242, #9, ( #27 ) ) ;
#30 = APPROVAL ( #10, 'UNSPECIFIED' ) ;
#31 = CC_DESIGN_APPROVAL ( #30, ( #27 ) ) ;
#32 = CC_DESIGN_SECURITY_CLASSIFICATION ( #27, ( #22 ) ) ;
#33 = PRODUCT_RELATED_PRODUCT_CATEGORY ( 'detail', '', ( #149 ) ) ;
#34 = ADVANCED_FACE ( 'NONE', ( #190 ), #186, .F. ) ;
#35 = ADVANCED_FACE ( 'NONE', ( #188, #192 ), #66, .F. ) ;
#36 = ADVANCED_FACE ( 'NONE', ( #191 ), #195, .T. ) ;
#37 = ADVANCED_FACE ( 'NONE', ( #193, #196 ), #46, .F. ) ;
#38 = ADVANCED_FACE ( 'NONE', ( #187 ), #199, .F. ) ;
#39 = ADVANCED_FACE ( 'NONE', ( #197 ), #201, .T. ) ;
#40 = CARTESIAN_POINT ( 'NONE',  ( 0.9999999999999940000, 0.0000000000000000000, 0.0000000000000000000 ) ) ;
#41 = CARTESIAN_POINT ( 'NONE',  ( 0.0000000000000000000, 0.0000000000000000000, 0.0000000000000000000 ) ) ;
#42 = DIRECTION ( 'NONE',  ( 0.0000000000000000000, 0.0000000000000000000, 1.000000000000000000 ) ) ;
#43 = DIRECTION ( 'NONE',  ( -1.000000000000000000, -0.0000000000000000000, -0.0000000000000000000 ) ) ;
#44 = CARTESIAN_POINT ( 'NONE',  ( 0.9999999999999940000, 0.0000000000000000000, 0.0000000000000000000 ) ) ;
#45 = DIRECTION ( 'NONE',  ( 0.0000000000000000000, 0.0000000000000000000, 1.000000000000000000 ) ) ;
#46 = PLANE ( 'NONE',  #138 ) ;
#47 = DIRECTION ( 'NONE',  ( 0.0000000000000000000, 0.0000000000000000000, -1.000000000000000000 ) ) ;
#48 = DIRECTION ( 'NONE',  ( 1.000000000000000000, 0.0000000000000000000, 0.0000000000000000000 ) ) ;
#49 = DIRECTION ( 'NONE',  ( -1.000000000000000000, -0.0000000000000000000, -0.0000000000000000000 ) ) ;
#50 = DIRECTION ( 'NONE',  ( 0.0000000000000000000, 0.0000000000000000000, 1.000000000000000000 ) ) ;
#51 = DIRECTION ( 'NONE',  ( -1.000000000000000000, -0.0000000000000000000, -0.0000000000000000000 ) ) ;
#52 = CARTESIAN_POINT ( 'NONE',  ( -1.000000000000007800, 0.0000000000000000000, 0.0000000000000000000 ) ) ;
#53 = DIRECTION ( 'NONE',  ( -1.000000000000000000, -0.0000000000000000000, -0.0000000000000000000 ) ) ;
#54 = CARTESIAN_POINT ( 'NONE',  ( -1.000000000000007800, 0.0000000000000000000, 0.0000000000000000000 ) ) ;
#55 = CARTESIAN_POINT ( 'NONE',  ( -39.90653472252495200, 0.0000000000000000000, 68.40000000000000600 ) ) ;
#56 = CARTESIAN_POINT ( 'NONE',  ( -39.90653472252495200, 0.0000000000000000000, 0.0000000000000000000 ) ) ;
#57 = DIRECTION ( 'NONE',  ( -1.000000000000000000, -0.0000000000000000000, -0.0000000000000000000 ) ) ;
#58 = CARTESIAN_POINT ( 'NONE',  ( -39.90653472252495200, 0.0000000000000000000, 0.0000000000000000000 ) ) ;
#59 = DIRECTION ( 'NONE',  ( -1.000000000000000000, -0.0000000000000000000, -0.0000000000000000000 ) ) ;
#60 = CARTESIAN_POINT ( 'NONE',  ( 0.9999999999999940000, 0.0000000000000000000, 0.0000000000000000000 ) ) ;
#61 = CARTESIAN_POINT ( 'NONE',  ( -39.90653472252495200, 0.0000000000000000000, 57.50000000000000700 ) ) ;
#62 = DIRECTION ( 'NONE',  ( -1.000000000000000000, -0.0000000000000000000, -0.0000000000000000000 ) ) ;
#63 = DIRECTION ( 'NONE',  ( 0.0000000000000000000, 0.0000000000000000000, 1.000000000000000000 ) ) ;
#64 = DIRECTION ( 'NONE',  ( -1.000000000000000000, -0.0000000000000000000, -0.0000000000000000000 ) ) ;
#65 = DIRECTION ( 'NONE',  ( 0.0000000000000000000, 0.0000000000000000000, 1.000000000000000000 ) ) ;
#66 = PLANE ( 'NONE',  #136 ) ;
#67 = CARTESIAN_POINT ( 'NONE',  ( -1.000000000000007800, 68.40000000000000600, 0.0000000000000000000 ) ) ;
#68 = DIRECTION ( 'NONE',  ( -1.000000000000000000, -0.0000000000000000000, -0.0000000000000000000 ) ) ;
#69 = CARTESIAN_POINT ( 'NONE',  ( 0.9999999999999940000, 8.376584106167896100E-015, -68.40000000000000600 ) ) ;
#70 = DIRECTION ( 'NONE',  ( -1.000000000000000000, -0.0000000000000000000, -0.0000000000000000000 ) ) ;
#71 = CARTESIAN_POINT ( 'NONE',  ( 0.9999999999999924500, 57.50000000000000700, 0.0000000000000000000 ) ) ;
#72 = PERSON_AND_ORGANIZATION_ROLE ( 'classification_officer' ) ;
#73 = SECURITY_CLASSIFICATION_LEVEL ( 'unclassified' ) ;
#74 =( NAMED_UNIT ( * ) SI_UNIT ( $, .STERADIAN. ) SOLID_ANGLE_UNIT ( ) );
#75 =( NAMED_UNIT ( * ) PLANE_ANGLE_UNIT ( ) SI_UNIT ( $, .RADIAN. ) );
#76 = DIRECTION ( 'NONE',  ( 0.0000000000000000000, 0.0000000000000000000, 1.000000000000000000 ) ) ;
#77 = CARTESIAN_POINT ( 'NONE',  ( -39.90653472252495200, 0.0000000000000000000, 0.0000000000000000000 ) ) ;
#78 = CARTESIAN_POINT ( 'NONE',  ( 0.9999999999999940000, 0.0000000000000000000, 57.50000000000000700 ) ) ;
#79 = APPLICATION_PROTOCOL_DEFINITION ( 'international standard', 'config_control_design', 1994, #80 ) ;
#80 = APPLICATION_CONTEXT ( 'configuration controlled 3d designs of mechanical parts and assemblies' ) ;
#81 = CARTESIAN_POINT ( 'NONE',  ( -1.000000000000007800, 0.0000000000000000000, 57.50000000000000700 ) ) ;
#82 = APPROVAL_STATUS ( 'not_yet_approved' ) ;
#83 = DIRECTION ( 'NONE',  ( 0.0000000000000000000, 0.0000000000000000000, 1.000000000000000000 ) ) ;
#84 = APPROVAL_ROLE ( '' ) ;
#85 = DIRECTION ( 'NONE',  ( 0.0000000000000000000, 0.0000000000000000000, 1.000000000000000000 ) ) ;
#86 = DIRECTION ( 'NONE',  ( -1.000000000000000000, 0.0000000000000000000, -0.0000000000000000000 ) ) ;
#87 = DIRECTION ( 'NONE',  ( -0.0000000000000000000, 0.0000000000000000000, 1.000000000000000000 ) ) ;
#88 = PERSON_AND_ORGANIZATION_ROLE ( 'creator' ) ;
#89 = PERSON_AND_ORGANIZATION_ROLE ( 'design_supplier' ) ;
#90 = CARTESIAN_POINT ( 'NONE',  ( -39.90653472252495200, 0.0000000000000000000, 0.0000000000000000000 ) ) ;
#91 = DIRECTION ( 'NONE',  ( 0.0000000000000000000, 0.0000000000000000000, 1.000000000000000000 ) ) ;
#92 = DIRECTION ( 'NONE',  ( -1.000000000000000000, -0.0000000000000000000, -0.0000000000000000000 ) ) ;
#93 = CARTESIAN_POINT ( 'NONE',  ( 0.9999999999999940000, 0.0000000000000000000, 0.0000000000000000000 ) ) ;
#94 = DIRECTION ( 'NONE',  ( -1.000000000000000000, -0.0000000000000000000, -0.0000000000000000000 ) ) ;
#95 = DIRECTION ( 'NONE',  ( 0.0000000000000000000, 0.0000000000000000000, 1.000000000000000000 ) ) ;
#96 = CARTESIAN_POINT ( 'NONE',  ( -1.000000000000007800, 0.0000000000000000000, 0.0000000000000000000 ) ) ;
#97 = DIRECTION ( 'NONE',  ( -1.000000000000000000, -0.0000000000000000000, -0.0000000000000000000 ) ) ;
#98 = CARTESIAN_POINT ( 'NONE',  ( -39.90653472252495200, 7.041719095097282100E-015, -57.50000000000000700 ) ) ;
#99 = CARTESIAN_POINT ( 'NONE',  ( -1.000000000000007800, 0.0000000000000000000, 0.0000000000000000000 ) ) ;
#100 = DIRECTION ( 'NONE',  ( 0.0000000000000000000, 0.0000000000000000000, 1.000000000000000000 ) ) ;
#101 = DIRECTION ( 'NONE',  ( -1.000000000000000000, -0.0000000000000000000, -0.0000000000000000000 ) ) ;
#102 = CARTESIAN_POINT ( 'NONE',  ( -39.90653472252495200, 8.376584106167896100E-015, -68.40000000000000600 ) ) ;
#103 = DIRECTION ( 'NONE',  ( -1.000000000000000000, -0.0000000000000000000, -0.0000000000000000000 ) ) ;
#104 = DIRECTION ( 'NONE',  ( 0.0000000000000000000, 0.0000000000000000000, 1.000000000000000000 ) ) ;
#105 =( LENGTH_UNIT ( ) NAMED_UNIT ( * ) SI_UNIT ( .MILLI., .METRE. ) );
#106 = CARTESIAN_POINT ( 'NONE',  ( -1.000000000000007800, 0.0000000000000000000, 68.40000000000000600 ) ) ;
#107 = CARTESIAN_POINT ( 'NONE',  ( -1.000000000000007800, 8.376584106167896100E-015, -68.40000000000000600 ) ) ;
#108 = CARTESIAN_POINT ( 'NONE',  ( -1.000000000000007800, 7.041719095097282100E-015, -57.50000000000000700 ) ) ;
#109 = DIRECTION ( 'NONE',  ( 0.0000000000000000000, 0.0000000000000000000, 1.000000000000000000 ) ) ;
#110 = DIRECTION ( 'NONE',  ( -1.000000000000000000, -0.0000000000000000000, -0.0000000000000000000 ) ) ;
#111 = APPROVAL_ROLE ( '' ) ;
#112 = PERSON_AND_ORGANIZATION_ROLE ( 'creator' ) ;
#113 = DATE_TIME_ROLE ( 'creation_date' ) ;
#114 = APPLICATION_CONTEXT ( 'configuration controlled 3d designs of mechanical parts and assemblies' ) ;
#115 = APPLICATION_PROTOCOL_DEFINITION ( 'international standard', 'config_control_design', 1994, #114 ) ;
#116 = APPROVAL_STATUS ( 'not_yet_approved' ) ;
#117 = DIRECTION ( 'NONE',  ( 1.000000000000000000, 0.0000000000000000000, 0.0000000000000000000 ) ) ;
#118 = MECHANICAL_CONTEXT ( 'NONE', #80, 'mechanical' ) ;
#119 = PERSON_AND_ORGANIZATION_ROLE ( 'design_owner' ) ;
#120 = CARTESIAN_POINT ( 'NONE',  ( 0.9999999999999940000, 0.0000000000000000000, 68.40000000000000600 ) ) ;
#121 = CARTESIAN_POINT ( 'NONE',  ( 0.9999999999999940000, 7.041719095097282100E-015, -57.50000000000000700 ) ) ;
#122 = EDGE_CURVE ( 'NONE', #5, #4, #200, .T. ) ;
#123 = EDGE_CURVE ( 'NONE', #153, #3, #194, .T. ) ;
#124 = EDGE_CURVE ( 'NONE', #1, #6, #189, .T. ) ;
#125 = EDGE_CURVE ( 'NONE', #151, #6, #198, .T. ) ;
#126 = EDGE_CURVE ( 'NONE', #153, #5, #202, .T. ) ;
#127 = EDGE_CURVE ( 'NONE', #3, #153, #204, .T. ) ;
#128 = EDGE_CURVE ( 'NONE', #4, #5, #207, .T. ) ;
#129 = EDGE_CURVE ( 'NONE', #6, #151, #208, .T. ) ;
#130 = EDGE_CURVE ( 'NONE', #1, #154, #209, .T. ) ;
#131 = EDGE_CURVE ( 'NONE', #3, #4, #205, .T. ) ;
#132 = EDGE_CURVE ( 'NONE', #154, #1, #210, .T. ) ;
#133 = EDGE_CURVE ( 'NONE', #154, #151, #212, .T. ) ;
#134 = AXIS2_PLACEMENT_3D ( 'NONE', #52, #51, #50 ) ;
#135 = AXIS2_PLACEMENT_3D ( 'NONE', #77, #68, #76 ) ;
#136 = AXIS2_PLACEMENT_3D ( 'NONE', #71, #86, #87 ) ;
#137 = AXIS2_PLACEMENT_3D ( 'NONE', #90, #70, #65 ) ;
#138 = AXIS2_PLACEMENT_3D ( 'NONE', #67, #48, #47 ) ;
#139 = AXIS2_PLACEMENT_3D ( 'NONE', #60, #64, #63 ) ;
#140 = AXIS2_PLACEMENT_3D ( 'NONE', #58, #59, #45 ) ;
#141 = AXIS2_PLACEMENT_3D ( 'NONE', #56, #57, #83 ) ;
#142 = AXIS2_PLACEMENT_3D ( 'NONE', #54, #53, #85 ) ;
#143 = AXIS2_PLACEMENT_3D ( 'NONE', #93, #94, #95 ) ;
#144 = AXIS2_PLACEMENT_3D ( 'NONE', #99, #103, #91 ) ;
#145 = AXIS2_PLACEMENT_3D ( 'NONE', #96, #97, #100 ) ;
#146 = ADVANCED_BREP_SHAPE_REPRESENTATION ( 'Entry thread seal - Metric and NPT.115 Metric', ( #148, #15 ), #14 ) ;
#147 = UNCERTAINTY_MEASURE_WITH_UNIT (LENGTH_MEASURE( 1.000000000000000100E-005 ), #105, 'distance_accuracy_value', 'NONE');
#148 = MANIFOLD_SOLID_BREP ( 'Revolve1', #2 ) ;
#149 = PRODUCT ( 'Entry thread seal - Metric and NPT.115 Metric', 'Entry thread seal - Metric and NPT.115 Metric', '', ( #118 ) ) ;
#150 = PERSON ( 'UNSPECIFIED', 'UNSPECIFIED', 'UNSPECIFIED', ('UNSPECIFIED'), ('UNSPECIFIED'), ('UNSPECIFIED') ) ;
#151 = VERTEX_POINT ( 'NONE', #108 ) ;
#152 = ORIENTED_EDGE ( 'NONE', *, *, #132, .F. ) ;
#153 = VERTEX_POINT ( 'NONE', #120 ) ;
#154 = VERTEX_POINT ( 'NONE', #121 ) ;
#155 = ORIENTED_EDGE ( 'NONE', *, *, #122, .F. ) ;
#156 = ORIENTED_EDGE ( 'NONE', *, *, #131, .T. ) ;
#157 = ORIENTED_EDGE ( 'NONE', *, *, #133, .T. ) ;
#158 = ORIENTED_EDGE ( 'NONE', *, *, #125, .T. ) ;
#159 = ORIENTED_EDGE ( 'NONE', *, *, #123, .T. ) ;
#160 = ORIENTED_EDGE ( 'NONE', *, *, #124, .F. ) ;
#161 = ORIENTED_EDGE ( 'NONE', *, *, #126, .F. ) ;
#162 = ORIENTED_EDGE ( 'NONE', *, *, #131, .F. ) ;
#163 = ORIENTED_EDGE ( 'NONE', *, *, #127, .T. ) ;
#164 = ORIENTED_EDGE ( 'NONE', *, *, #126, .T. ) ;
#165 = ORIENTED_EDGE ( 'NONE', *, *, #128, .F. ) ;
#166 = ORIENTED_EDGE ( 'NONE', *, *, #129, .F. ) ;
#167 = ORIENTED_EDGE ( 'NONE', *, *, #125, .F. ) ;
#168 = ORIENTED_EDGE ( 'NONE', *, *, #122, .T. ) ;
#169 = ORIENTED_EDGE ( 'NONE', *, *, #128, .T. ) ;
#170 = ORIENTED_EDGE ( 'NONE', *, *, #133, .F. ) ;
#171 = ORIENTED_EDGE ( 'NONE', *, *, #130, .F. ) ;
#172 = ORIENTED_EDGE ( 'NONE', *, *, #124, .T. ) ;
#173 = ORIENTED_EDGE ( 'NONE', *, *, #129, .T. ) ;
#174 = ORIENTED_EDGE ( 'NONE', *, *, #123, .F. ) ;
#175 = ORIENTED_EDGE ( 'NONE', *, *, #127, .F. ) ;
#176 = ORIENTED_EDGE ( 'NONE', *, *, #130, .T. ) ;
#177 = ORIENTED_EDGE ( 'NONE', *, *, #132, .T. ) ;
#178 = EDGE_LOOP ( 'NONE', ( #166, #167 ) ) ;
#179 = EDGE_LOOP ( 'NONE', ( #174, #175 ) ) ;
#180 = EDGE_LOOP ( 'NONE', ( #162, #163, #164, #165 ) ) ;
#181 = EDGE_LOOP ( 'NONE', ( #176, #177 ) ) ;
#182 = EDGE_LOOP ( 'NONE', ( #170, #171, #172, #173 ) ) ;
#183 = EDGE_LOOP ( 'NONE', ( #152, #157, #158, #160 ) ) ;
#184 = EDGE_LOOP ( 'NONE', ( #159, #156, #155, #161 ) ) ;
#185 = EDGE_LOOP ( 'NONE', ( #168, #169 ) ) ;
#186 = CYLINDRICAL_SURFACE ( 'NONE', #135, 57.50000000000000700 ) ;
#187 = FACE_OUTER_BOUND ( 'NONE', #183, .T. ) ;
#188 = FACE_OUTER_BOUND ( 'NONE', #179, .T. ) ;
#189 = LINE ( 'NONE', #61, #203 ) ;
#190 = FACE_OUTER_BOUND ( 'NONE', #182, .T. ) ;
#191 = FACE_OUTER_BOUND ( 'NONE', #184, .T. ) ;
#192 = FACE_BOUND ( 'NONE', #181, .T. ) ;
#193 = FACE_BOUND ( 'NONE', #178, .T. ) ;
#194 = CIRCLE ( 'NONE', #139, 68.40000000000000600 ) ;
#195 = CYLINDRICAL_SURFACE ( 'NONE', #137, 68.40000000000000600 ) ;
#196 = FACE_OUTER_BOUND ( 'NONE', #185, .T. ) ;
#197 = FACE_OUTER_BOUND ( 'NONE', #180, .T. ) ;
#198 = CIRCLE ( 'NONE', #142, 57.50000000000000700 ) ;
#199 = CYLINDRICAL_SURFACE ( 'NONE', #140, 57.50000000000000700 ) ;
#200 = CIRCLE ( 'NONE', #134, 68.40000000000000600 ) ;
#201 = CYLINDRICAL_SURFACE ( 'NONE', #141, 68.40000000000000600 ) ;
#202 = LINE ( 'NONE', #55, #206 ) ;
#203 = VECTOR ( 'NONE', #49, 1000.000000000000000 ) ;
#204 = CIRCLE ( 'NONE', #143, 68.40000000000000600 ) ;
#205 = LINE ( 'NONE', #102, #211 ) ;
#206 = VECTOR ( 'NONE', #62, 1000.000000000000000 ) ;
#207 = CIRCLE ( 'NONE', #144, 68.40000000000000600 ) ;
#208 = CIRCLE ( 'NONE', #145, 57.50000000000000700 ) ;
#209 = CIRCLE ( 'NONE', #12, 57.50000000000000700 ) ;
#210 = CIRCLE ( 'NONE', #13, 57.50000000000000700 ) ;
#211 = VECTOR ( 'NONE', #92, 1000.000000000000000 ) ;
#212 = LINE ( 'NONE', #98, #213 ) ;
#213 = VECTOR ( 'NONE', #101, 1000.000000000000000 ) ;
#214 = SHAPE_DEFINITION_REPRESENTATION ( #7, #146 ) ;
#215 = ORGANIZATION ( 'UNSPECIFIED', 'UNSPECIFIED', '' ) ;
#216 = PERSON_AND_ORGANIZATION ( #150, #215 ) ;
#217 = PERSON_AND_ORGANIZATION ( #150, #215 ) ;
#218 = APPROVAL_PERSON_ORGANIZATION ( #217, #18, #111 ) ;
#219 = COORDINATED_UNIVERSAL_TIME_OFFSET ( 0, 0, .AHEAD. ) ;
#220 = LOCAL_TIME ( 10, 14, 38.00000000000000000, #219 ) ;
#221 = CALENDAR_DATE ( 2013, 7, 2 ) ;
#222 = DATE_AND_TIME ( #221, #220 ) ;
#223 = APPROVAL_DATE_TIME ( #222, #18 ) ;
#224 = PERSON_AND_ORGANIZATION ( #150, #215 ) ;
#225 = COORDINATED_UNIVERSAL_TIME_OFFSET ( 0, 0, .AHEAD. ) ;
#226 = LOCAL_TIME ( 10, 14, 38.00000000000000000, #225 ) ;
#227 = CALENDAR_DATE ( 2013, 7, 2 ) ;
#228 = DATE_AND_TIME ( #227, #226 ) ;
#229 = PERSON_AND_ORGANIZATION ( #150, #215 ) ;
#230 = APPROVAL_PERSON_ORGANIZATION ( #229, #23, #84 ) ;
#231 = COORDINATED_UNIVERSAL_TIME_OFFSET ( 0, 0, .AHEAD. ) ;
#232 = LOCAL_TIME ( 10, 14, 38.00000000000000000, #231 ) ;
#233 = CALENDAR_DATE ( 2013, 7, 2 ) ;
#234 = DATE_AND_TIME ( #233, #232 ) ;
#235 = APPROVAL_DATE_TIME ( #234, #23 ) ;
#236 = PERSON_AND_ORGANIZATION ( #150, #215 ) ;
#237 = PERSON_AND_ORGANIZATION ( #150, #215 ) ;
#238 = PERSON_AND_ORGANIZATION ( #150, #215 ) ;
#239 = COORDINATED_UNIVERSAL_TIME_OFFSET ( 0, 0, .AHEAD. ) ;
#240 = LOCAL_TIME ( 10, 14, 38.00000000000000000, #239 ) ;
#241 = CALENDAR_DATE ( 2013, 7, 2 ) ;
#242 = DATE_AND_TIME ( #241, #240 ) ;
#243 = PERSON_AND_ORGANIZATION ( #150, #215 ) ;
#244 = APPROVAL_PERSON_ORGANIZATION ( #243, #30, #11 ) ;
#245 = COORDINATED_UNIVERSAL_TIME_OFFSET ( 0, 0, .AHEAD. ) ;
#246 = LOCAL_TIME ( 10, 14, 38.00000000000000000, #245 ) ;
#247 = CALENDAR_DATE ( 2013, 7, 2 ) ;
#248 = DATE_AND_TIME ( #247, #246 ) ;
#249 = APPROVAL_DATE_TIME ( #248, #30 ) ;
ENDSEC;
END-ISO-10303-21;
